  0
SECTION
  2
HEADER
  9
$ACADVER
  1
AC1015
  9
$ACADMAINTVER
 70
     6
  9
$DWGCODEPAGE
  3
ANSI_1254
  9
$INSBASE
 10
0.0
 20
0.0
 30
0.0
  9
$EXTMIN
 10
0.0
 20
0.0
 30
0.0
  9
$EXTMAX
 10
279.4
 20
215.9
 30
0.0
  9
$LIMMIN
 10
0.0
 20
0.0
  9
$LIMMAX
 10
279.4
 20
215.9
  9
$ORTHOMODE
 70
     0
  9
$REGENMODE
 70
     1
  9
$FILLMODE
 70
     1
  9
$QTEXTMODE
 70
     0
  9
$MIRRTEXT
 70
     1
  9
$LTSCALE
 40
1.0
  9
$ATTMODE
 70
     1
  9
$TEXTSIZE
 40
3.5
  9
$TRACEWID
 40
1.0
  9
$TEXTSTYLE
  7
Standard
  9
$CLAYER
  8
0
  9
$CELTYPE
  6
ByLayer
  9
$CECOLOR
 62
   256
  9
$CELTSCALE
 40
1.0
  9
$DISPSILH
 70
     0
  9
$DIMSCALE
 40
1.0
  9
$DIMASZ
 40
3.5
  9
$DIMEXO
 40
1.0
  9
$DIMDLI
 40
3.75
  9
$DIMRND
 40
0.0
  9
$DIMDLE
 40
0.0
  9
$DIMEXE
 40
1.0
  9
$DIMTP
 40
0.0
  9
$DIMTM
 40
0.0
  9
$DIMTXT
 40
3.5
  9
$DIMCEN
 40
2.5
  9
$DIMTSZ
 40
0.0
  9
$DIMTOL
 70
     0
  9
$DIMLIM
 70
     0
  9
$DIMTIH
 70
     1
  9
$DIMTOH
 70
     1
  9
$DIMSE1
 70
     0
  9
$DIMSE2
 70
     0
  9
$DIMTAD
 70
     1
  9
$DIMZIN
 70
     0
  9
$DIMBLK
  1

  9
$DIMASO
 70
     1
  9
$DIMSHO
 70
     1
  9
$DIMPOST
  1

  9
$DIMAPOST
  1

  9
$DIMALT
 70
     0
  9
$DIMALTD
 70
     3
  9
$DIMALTF
 40
0.0393700787
  9
$DIMLFAC
 40
1.0
  9
$DIMTOFL
 70
     1
  9
$DIMTVP
 40
0.0
  9
$DIMTIX
 70
     0
  9
$DIMSOXD
 70
     0
  9
$DIMSAH
 70
     0
  9
$DIMBLK1
  1

  9
$DIMBLK2
  1

  9
$DIMSTYLE
  2
ISO-25
  9
$DIMCLRD
 70
     0
  9
$DIMCLRE
 70
     0
  9
$DIMCLRT
 70
     0
  9
$DIMTFAC
 40
1.0
  9
$DIMGAP
 40
1.524
  9
$DIMJUST
 70
     0
  9
$DIMSD1
 70
     0
  9
$DIMSD2
 70
     0
  9
$DIMTOLJ
 70
     0
  9
$DIMTZIN
 70
     0
  9
$DIMALTZ
 70
     0
  9
$DIMALTTZ
 70
     0
  9
$DIMUPT
 70
     0
  9
$DIMDEC
 70
     2
  9
$DIMTDEC
 70
     2
  9
$DIMALTU
 70
     2
  9
$DIMALTTD
 70
     3
  9
$DIMTXSTY
  7
Standard
  9
$DIMAUNIT
 70
     0
  9
$DIMADEC
 70
     2
  9
$DIMALTRND
 40
0.0
  9
$DIMAZIN
 70
     0
  9
$DIMDSEP
 70
    44
  9
$DIMATFIT
 70
     3
  9
$DIMFRAC
 70
     0
  9
$DIMLDRBLK
  1

  9
$DIMLUNIT
 70
     2
  9
$DIMLWD
 70
    -2
  9
$DIMLWE
 70
    -2
  9
$DIMTMOVE
 70
     0
  9
$LUNITS
 70
     2
  9
$LUPREC
 70
     2
  9
$SKETCHINC
 40
1.0
  9
$FILLETRAD
 40
10.0
  9
$AUNITS
 70
     0
  9
$AUPREC
 70
     2
  9
$MENU
  1
.
  9
$ELEVATION
 40
0.0
  9
$PELEVATION
 40
0.0
  9
$THICKNESS
 40
0.0
  9
$LIMCHECK
 70
     0
  9
$CHAMFERA
 40
0.0
  9
$CHAMFERB
 40
0.0
  9
$CHAMFERC
 40
0.0
  9
$CHAMFERD
 40
0.0
  9
$SKPOLY
 70
     0
  9
$TDCREATE
 40
2458985.646350058
  9
$TDUCREATE
 40
2458985.521350058
  9
$TDUPDATE
 40
2458985.646350301
  9
$TDUUPDATE
 40
2458985.521350301
  9
$TDINDWG
 40
0.0000000116
  9
$TDUSRTIMER
 40
0.0000000116
  9
$USRTIMER
 70
     1
  9
$ANGBASE
 50
0.0
  9
$ANGDIR
 70
     0
  9
$PDMODE
 70
     0
  9
$PDSIZE
 40
-1.0
  9
$PLINEWID
 40
0.0
  9
$SPLFRAME
 70
     0
  9
$SPLINETYPE
 70
     6
  9
$SPLINESEGS
 70
     8
  9
$HANDSEED
  5
C2
  9
$SURFTAB1
 70
     6
  9
$SURFTAB2
 70
     6
  9
$SURFTYPE
 70
     6
  9
$SURFU
 70
     6
  9
$SURFV
 70
     6
  9
$UCSBASE
  2

  9
$UCSNAME
  2

  9
$UCSORG
 10
0.0
 20
0.0
 30
0.0
  9
$UCSXDIR
 10
1.0
 20
0.0
 30
0.0
  9
$UCSYDIR
 10
0.0
 20
1.0
 30
0.0
  9
$UCSORTHOREF
  2

  9
$UCSORTHOVIEW
 70
     0
  9
$UCSORGTOP
 10
0.0
 20
0.0
 30
0.0
  9
$UCSORGBOTTOM
 10
0.0
 20
0.0
 30
0.0
  9
$UCSORGLEFT
 10
0.0
 20
0.0
 30
0.0
  9
$UCSORGRIGHT
 10
0.0
 20
0.0
 30
0.0
  9
$UCSORGFRONT
 10
0.0
 20
0.0
 30
0.0
  9
$UCSORGBACK
 10
0.0
 20
0.0
 30
0.0
  9
$PUCSBASE
  2

  9
$PUCSNAME
  2

  9
$PUCSORG
 10
0.0
 20
0.0
 30
0.0
  9
$PUCSXDIR
 10
1.0
 20
0.0
 30
0.0
  9
$PUCSYDIR
 10
0.0
 20
1.0
 30
0.0
  9
$PUCSORTHOREF
  2

  9
$PUCSORTHOVIEW
 70
     0
  9
$PUCSORGTOP
 10
0.0
 20
0.0
 30
0.0
  9
$PUCSORGBOTTOM
 10
0.0
 20
0.0
 30
0.0
  9
$PUCSORGLEFT
 10
0.0
 20
0.0
 30
0.0
  9
$PUCSORGRIGHT
 10
0.0
 20
0.0
 30
0.0
  9
$PUCSORGFRONT
 10
0.0
 20
0.0
 30
0.0
  9
$PUCSORGBACK
 10
0.0
 20
0.0
 30
0.0
  9
$USERI1
 70
     0
  9
$USERI2
 70
     0
  9
$USERI3
 70
     0
  9
$USERI4
 70
     0
  9
$USERI5
 70
     0
  9
$USERR1
 40
0.0
  9
$USERR2
 40
0.0
  9
$USERR3
 40
0.0
  9
$USERR4
 40
0.0
  9
$USERR5
 40
0.0
  9
$WORLDVIEW
 70
     1
  9
$SHADEDGE
 70
     3
  9
$SHADEDIF
 70
    70
  9
$TILEMODE
 70
     1
  9
$MAXACTVP
 70
    64
  9
$PINSBASE
 10
0.0
 20
0.0
 30
0.0
  9
$PLIMCHECK
 70
     0
  9
$PEXTMIN
 10
1.0000000000E+20
 20
1.0000000000E+20
 30
1.0000000000E+20
  9
$PEXTMAX
 10
-1.0000000000E+20
 20
-1.0000000000E+20
 30
-1.0000000000E+20
  9
$PLIMMIN
 10
0.0
 20
0.0
  9
$PLIMMAX
 10
420.0
 20
297.0
  9
$UNITMODE
 70
     0
  9
$VISRETAIN
 70
     1
  9
$PLINEGEN
 70
     0
  9
$PSLTSCALE
 70
     1
  9
$TREEDEPTH
 70
  3020
  9
$CMLSTYLE
  2
Standard
  9
$CMLJUST
 70
     0
  9
$CMLSCALE
 40
20.0
  9
$PROXYGRAPHICS
 70
     1
  9
$MEASUREMENT
 70
     1
  9
$CELWEIGHT
370
    -1
  9
$ENDCAPS
280
     0
  9
$JOINSTYLE
280
     0
  9
$LWDISPLAY
290
     1
  9
$INSUNITS
 70
     4
  9
$HYPERLINKBASE
  1

  9
$STYLESHEET
  1

  9
$XEDIT
290
     1
  9
$CEPSNTYPE
380
     0
  9
$PSTYLEMODE
290
     1
  9
$FINGERPRINTGUID
  2
{41be2661-14fa-4710-a819-212bc54ce162}
  9
$VERSIONGUID
  2
{FAEB1C32-E019-11D5-929B-00C0DF256EC4}
  9
$EXTNAMES
290
     1
  9
$PSVPSCALE
 40
0.0
  9
$OLESTARTUP
290
     0
  0
ENDSEC
  0
SECTION
  2
CLASSES
  0
CLASS
  1
ACDBDICTIONARYWDFLT
  2
AcDbDictionaryWithDefault
  3
ObjectDBX Classes
 90
        0
280
     0
281
     0
  0
CLASS
  1
VISUALSTYLE
  2
AcDbVisualStyle
  3
ObjectDBX Classes
 90
     4095
280
     0
281
     0
  0
CLASS
  1
MATERIAL
  2
AcDbMaterial
  3
ObjectDBX Classes
 90
     1153
280
     0
281
     0
  0
CLASS
  1
SCALE
  2
AcDbScale
  3
ObjectDBX Classes
 90
     1153
280
     0
281
     0
  0
CLASS
  1
TABLESTYLE
  2
AcDbTableStyle
  3
ObjectDBX Classes
 90
     4095
280
     0
281
     0
  0
CLASS
  1
MLEADERSTYLE
  2
AcDbMLeaderStyle
  3
ACDB_MLEADERSTYLE_CLASS
 90
     4095
280
     0
281
     0
  0
CLASS
  1
SUN
  2
AcDbSun
  3
SCENEOE
 90
     1153
280
     0
281
     0
  0
CLASS
  1
ACDBPLACEHOLDER
  2
AcDbPlaceHolder
  3
ObjectDBX Classes
 90
        0
280
     0
281
     0
  0
CLASS
  1
LAYOUT
  2
AcDbLayout
  3
ObjectDBX Classes
 90
        0
280
     0
281
     0
  0
ENDSEC
  0
SECTION
  2
TABLES
  0
TABLE
  2
VPORT
  5
8
330
0
100
AcDbSymbolTable
 70
     1
  0
VPORT
  5
29
330
8
100
AcDbSymbolTableRecord
100
AcDbViewportTableRecord
  2
*Active
 70
     0
 10
0.0
 20
0.0
 11
1.0
 21
1.0
 12
139.7
 22
107.95
 13
0.0
 23
0.0
 14
10.0
 24
10.0
 15
10.0
 25
10.0
 16
0.0
 26
0.0
 36
1.0
 17
0.0
 27
0.0
 37
0.0
 40
215.9
 41
1.2941176471
 42
50.0
 43
0.0
 44
0.0
 50
0.0
 51
0.0
 71
     0
 72
  2000
 73
     1
 74
     3
 75
     0
 76
     0
 77
     0
 78
     0
281
     0
 65
     1
110
0.0
120
0.0
130
0.0
111
1.0
121
0.0
131
0.0
112
0.0
122
1.0
132
0.0
 79
     0
146
0.0
  0
ENDTAB
  0
TABLE
  2
LTYPE
  5
5
330
0
100
AcDbSymbolTable
 70
     6
  0
LTYPE
  5
14
330
5
100
AcDbSymbolTableRecord
100
AcDbLinetypeTableRecord
  2
ByBlock
 70
     0
  3

 72
    65
 73
     0
 40
0.0
  0
LTYPE
  5
15
330
5
100
AcDbSymbolTableRecord
100
AcDbLinetypeTableRecord
  2
ByLayer
 70
     0
  3

 72
    65
 73
     0
 40
0.0
  0
LTYPE
  5
16
330
5
100
AcDbSymbolTableRecord
100
AcDbLinetypeTableRecord
  2
Continuous
 70
     0
  3
Solid line
 72
    65
 73
     0
 40
0.0
  0
LTYPE
  5
6E
330
5
100
AcDbSymbolTableRecord
100
AcDbLinetypeTableRecord
  2
HIDDEN
 70
     0
  3
Hidden __ __ __ __ __ __ __ __ __ __ __ __ __ __
 72
    65
 73
     2
 40
1.905
 49
1.27
 74
     0
 49
-0.635
 74
     0
  0
LTYPE
  5
6F
330
5
100
AcDbSymbolTableRecord
100
AcDbLinetypeTableRecord
  2
PHANTOM
 70
     0
  3
Phantom ______  __  __  ______  __  __  ______
 72
    65
 73
     6
 40
12.7
 49
6.35
 74
     0
 49
-1.27
 74
     0
 49
1.27
 74
     0
 49
-1.27
 74
     0
 49
1.27
 74
     0
 49
-1.27
 74
     0
  0
LTYPE
  5
70
330
5
100
AcDbSymbolTableRecord
100
AcDbLinetypeTableRecord
  2
CENTER
 70
     0
  3
Center ____ _ ____ _ ____ _ ____ _ ____ _ ____
 72
    65
 73
     4
 40
10.16
 49
6.35
 74
     0
 49
-1.27
 74
     0
 49
1.27
 74
     0
 49
-1.27
 74
     0
  0
LTYPE
  5
71
330
5
100
AcDbSymbolTableRecord
100
AcDbLinetypeTableRecord
  2
CENTERX2
 70
     0
  3
Center (2x) ________  __  ________  __  _____
 72
    65
 73
     4
 40
20.32
 49
12.7
 74
     0
 49
-2.54
 74
     0
 49
2.54
 74
     0
 49
-2.54
 74
     0
  0
LTYPE
  5
72
330
5
100
AcDbSymbolTableRecord
100
AcDbLinetypeTableRecord
  2
DOT2
 70
     0
  3
Dot (.5x) ........................................
 72
    65
 73
     2
 40
0.635
 49
0.0
 74
     0
 49
-0.635
 74
     0
  0
ENDTAB
  0
TABLE
  2
LAYER
  5
2
330
0
100
AcDbSymbolTable
 70
    17
  0
LAYER
  5
10
330
2
100
AcDbSymbolTableRecord
100
AcDbLayerTableRecord
  2
0
 70
     0
 62
     7
  6
Continuous
370
    -3
390
F
  0
LAYER
  5
73
330
2
100
AcDbSymbolTableRecord
100
AcDbLayerTableRecord
  2
FORMAT
 70
     0
 62
     7
  6
Continuous
370
    -3
390
F
  0
LAYER
  5
74
330
2
100
AcDbSymbolTableRecord
100
AcDbLayerTableRecord
  2
YARDIMCI_GEOMETRI
 70
     0
 62
    -6
  6
Continuous
290
     0
370
    -3
390
F
  0
LAYER
  5
75
330
2
100
AcDbSymbolTableRecord
100
AcDbLayerTableRecord
  2
SAYFA_CERCEVESI
 70
     0
 62
     7
  6
Continuous
370
    25
390
F
  0
LAYER
  5
76
330
2
100
AcDbSymbolTableRecord
100
AcDbLayerTableRecord
  2
ANTET
 70
     0
 62
     7
  6
Continuous
370
    -3
390
F
  0
LAYER
  5
77
330
2
100
AcDbSymbolTableRecord
100
AcDbLayerTableRecord
  2
OLCU
 70
     0
 62
   150
  6
Continuous
370
    -3
390
F
  0
LAYER
  5
78
330
2
100
AcDbSymbolTableRecord
100
AcDbLayerTableRecord
  2
METIN
 70
     0
 62
    96
  6
Continuous
370
    -3
390
F
  0
LAYER
  5
79
330
2
100
AcDbSymbolTableRecord
100
AcDbLayerTableRecord
  2
BALON
 70
     0
 62
     5
  6
Continuous
370
    -3
390
F
  0
LAYER
  5
7A
330
2
100
AcDbSymbolTableRecord
100
AcDbLayerTableRecord
  2
VURGU
 70
     0
 62
     7
  6
Continuous
370
    -3
390
F
  0
LAYER
  5
7B
330
2
100
AcDbSymbolTableRecord
100
AcDbLayerTableRecord
  2
SILIK
 70
     0
 62
     7
  6
Continuous
370
    -3
390
F
  0
LAYER
  5
7C
330
2
100
AcDbSymbolTableRecord
100
AcDbLayerTableRecord
  2
MODEL
 70
     0
 62
     7
  6
Continuous
370
    -3
390
F
  0
LAYER
  5
7D
330
2
100
AcDbSymbolTableRecord
100
AcDbLayerTableRecord
  2
DETAYLANDıRMA
 70
     0
 62
   190
  6
Continuous
370
    -3
390
F
  0
LAYER
  5
7E
330
2
100
AcDbSymbolTableRecord
100
AcDbLayerTableRecord
  2
TOLERANS
 70
     0
 62
   230
  6
Continuous
370
    -3
390
F
  0
LAYER
  5
7F
330
2
100
AcDbSymbolTableRecord
100
AcDbLayerTableRecord
  2
MERKEZ_CIZGILERI
 70
     0
 62
    30
  6
Continuous
370
    -3
390
F
  0
LAYER
  5
80
330
2
100
AcDbSymbolTableRecord
100
AcDbLayerTableRecord
  2
KESIT-DETAY_CIZGILERI
 70
     0
 62
     7
  6
Continuous
370
    -3
390
F
  0
LAYER
  5
81
330
2
100
AcDbSymbolTableRecord
100
AcDbLayerTableRecord
  2
\U+041E\U+0421\U+0415\U+0412\U+042B\U+0415
 70
     0
 62
     7
  6
Continuous
370
    -3
390
F
  0
LAYER
  5
82
330
2
100
AcDbSymbolTableRecord
100
AcDbLayerTableRecord
  2
\U+0412\U+041E\U+0414\U+042F\U+041D\U+042B\U+0415_\U+0417\U+041D\U+0410\U+041A\U+0418
 70
     0
 62
    11
  6
Continuous
370
    -3
390
F
  0
ENDTAB
  0
TABLE
  2
STYLE
  5
3
330
0
100
AcDbSymbolTable
 70
     1
  0
STYLE
  5
11
330
3
100
AcDbSymbolTableRecord
100
AcDbTextStyleTableRecord
  2
Standard
 70
     0
 40
0.0
 41
1.0
 50
0.0
 71
     0
 42
3.5
  3
txt
  4

  0
ENDTAB
  0
TABLE
  2
VIEW
  5
6
330
0
100
AcDbSymbolTable
 70
     0
  0
ENDTAB
  0
TABLE
  2
UCS
  5
7
330
0
100
AcDbSymbolTable
 70
     0
  0
ENDTAB
  0
TABLE
  2
APPID
  5
9
330
0
100
AcDbSymbolTable
 70
     1
  0
APPID
  5
12
330
9
100
AcDbSymbolTableRecord
100
AcDbRegAppTableRecord
  2
ACAD
 70
     0
  0
ENDTAB
  0
TABLE
  2
DIMSTYLE
  5
A
330
0
100
AcDbSymbolTable
 70
     1
100
AcDbDimStyleTable
  0
DIMSTYLE
105
27
330
A
100
AcDbSymbolTableRecord
100
AcDbDimStyleTableRecord
  2
ISO-25
 70
     0
 41
2.5
 42
0.625
 43
3.75
 44
1.25
 73
     0
 74
     0
 77
     1
 78
     8
140
2.5
141
2.5
143
0.0393700787
147
0.625
171
     3
172
     1
178
     0
271
     2
272
     2
274
     3
278
    44
283
     0
284
     8
340
11
  0
ENDTAB
  0
TABLE
  2
BLOCK_RECORD
  5
1
330
0
100
AcDbSymbolTable
 70
     1
  0
BLOCK_RECORD
  5
1F
330
1
100
AcDbSymbolTableRecord
100
AcDbBlockTableRecord
  2
*Model_Space
340
22
  0
BLOCK_RECORD
  5
1B
330
1
100
AcDbSymbolTableRecord
100
AcDbBlockTableRecord
  2
*Paper_Space
340
1E
  0
BLOCK_RECORD
  5
23
330
1
100
AcDbSymbolTableRecord
100
AcDbBlockTableRecord
  2
*Paper_Space0
340
26
  0
ENDTAB
  0
ENDSEC
  0
SECTION
  2
BLOCKS
  0
BLOCK
  5
20
330
1F
100
AcDbEntity
  8
0
100
AcDbBlockBegin
  2
*Model_Space
 70
     0
 10
0.0
 20
0.0
 30
0.0
  3
*Model_Space
  1

  0
ENDBLK
  5
21
330
1F
100
AcDbEntity
  8
0
100
AcDbBlockEnd
  0
BLOCK
  5
1C
330
1B
100
AcDbEntity
 67
     1
  8
0
100
AcDbBlockBegin
  2
*Paper_Space
 70
     0
 10
0.0
 20
0.0
 30
0.0
  3
*Paper_Space
  1

  0
ENDBLK
  5
1D
330
1B
100
AcDbEntity
 67
     1
  8
0
100
AcDbBlockEnd
  0
BLOCK
  5
24
330
23
100
AcDbEntity
  8
0
100
AcDbBlockBegin
  2
*Paper_Space0
 70
     0
 10
0.0
 20
0.0
 30
0.0
  3
*Paper_Space0
  1

  0
ENDBLK
  5
25
330
23
100
AcDbEntity
  8
0
100
AcDbBlockEnd
  0
ENDSEC
  0
SECTION
  2
ENTITIES
  0
CIRCLE
  5
83
330
1F
100
AcDbEntity
  8
0
  6
Continuous
 62
     7
370
    25
100
AcDbCircle
 10
135.9944086538
 20
111.24333646
 30
0.0
 40
157.5
  0
CIRCLE
  5
84
330
1F
100
AcDbEntity
  8
0
  6
Continuous
 62
     7
370
    25
100
AcDbCircle
 10
135.9944086538
 20
111.24333646
 30
0.0
 40
128.9
  0
CIRCLE
  5
85
330
1F
100
AcDbEntity
  8
0
  6
Continuous
 62
     7
370
    25
100
AcDbCircle
 10
135.9944086538
 20
111.24333646
 30
0.0
 40
169.0
  0
CIRCLE
  5
86
330
1F
100
AcDbEntity
  8
0
  6
Continuous
 62
     7
370
    25
100
AcDbCircle
 10
135.9944086538
 20
111.24333646
 30
0.0
 40
187.5
  0
LINE
  5
87
330
1F
100
AcDbEntity
  8
0
  6
Continuous
 62
     7
370
    25
100
AcDbLine
 10
323.4944086538
 20
467.9091326725
 30
0.0
 11
323.4944086538
 21
502.9091326725
 31
0.0
  0
LINE
  5
88
330
1F
100
AcDbEntity
  8
0
  6
Continuous
 62
     7
370
    25
100
AcDbLine
 10
-51.5055913462
 20
502.9091326725
 30
0.0
 11
-51.5055913462
 21
467.9091326725
 31
0.0
  0
LINE
  5
89
330
1F
100
AcDbEntity
  8
0
  6
Continuous
 62
     7
370
    25
100
AcDbLine
 10
304.9944086538
 20
502.9091326725
 30
0.0
 11
293.4944086538
 21
540.9091326725
 31
0.0
  0
LINE
  5
8A
330
1F
100
AcDbEntity
  8
0
  6
Continuous
 62
     7
370
    25
100
AcDbLine
 10
-21.5055913462
 20
540.9091326725
 30
0.0
 11
-33.0055913462
 21
502.9091326725
 31
0.0
  0
LINE
  5
8B
330
1F
100
AcDbEntity
  8
0
  6
Continuous
 62
     7
370
    25
100
AcDbLine
 10
293.4944086538
 20
540.9091326725
 30
0.0
 11
293.4944086538
 21
587.9091326725
 31
0.0
  0
LINE
  5
8C
330
1F
100
AcDbEntity
  8
0
  6
Continuous
 62
     7
370
    25
100
AcDbLine
 10
-21.5055913462
 20
587.9091326725
 30
0.0
 11
-21.5055913462
 21
540.9091326725
 31
0.0
  0
LINE
  5
8D
330
1F
100
AcDbEntity
  8
0
  6
Continuous
 62
     7
370
    25
100
AcDbLine
 10
323.4944086538
 20
467.9091326725
 30
0.0
 11
-51.5055913462
 21
467.9091326725
 31
0.0
  0
LINE
  5
8E
330
1F
100
AcDbEntity
  8
0
  6
Continuous
 62
     7
370
    25
100
AcDbLine
 10
323.4944086538
 20
502.9091326725
 30
0.0
 11
-51.5055913462
 21
502.9091326725
 31
0.0
  0
LINE
  5
8F
330
1F
100
AcDbEntity
  8
0
  6
Continuous
 62
     7
370
    25
100
AcDbLine
 10
293.4944086538
 20
540.9091326725
 30
0.0
 11
-21.5055913462
 21
540.9091326725
 31
0.0
  0
LINE
  5
90
330
1F
100
AcDbEntity
  8
0
  6
Continuous
 62
     7
370
    25
100
AcDbLine
 10
293.4944086538
 20
587.9091326725
 30
0.0
 11
-21.5055913462
 21
587.9091326725
 31
0.0
  0
LINE
  5
91
330
1F
100
AcDbEntity
  8
0
  6
Continuous
 62
     7
370
    25
100
AcDbLine
 10
-283.2451493617
 20
298.74333646
 30
0.0
 11
-318.2451493617
 21
298.74333646
 31
0.0
  0
LINE
  5
92
330
1F
100
AcDbEntity
  8
0
  6
Continuous
 62
     7
370
    25
100
AcDbLine
 10
-318.2451493617
 20
-76.25666354
 30
0.0
 11
-283.2451493617
 21
-76.25666354
 31
0.0
  0
LINE
  5
93
330
1F
100
AcDbEntity
  8
0
  6
Continuous
 62
     7
370
    25
100
AcDbLine
 10
-318.2451493617
 20
280.24333646
 30
0.0
 11
-356.2451493617
 21
268.74333646
 31
0.0
  0
LINE
  5
94
330
1F
100
AcDbEntity
  8
0
  6
Continuous
 62
     7
370
    25
100
AcDbLine
 10
-356.2451493617
 20
-46.25666354
 30
0.0
 11
-318.2451493617
 21
-57.75666354
 31
0.0
  0
LINE
  5
95
330
1F
100
AcDbEntity
  8
0
  6
Continuous
 62
     7
370
    25
100
AcDbLine
 10
-356.2451493617
 20
268.74333646
 30
0.0
 11
-403.2451493617
 21
268.74333646
 31
0.0
  0
LINE
  5
96
330
1F
100
AcDbEntity
  8
0
  6
Continuous
 62
     7
370
    25
100
AcDbLine
 10
-403.2451493617
 20
-46.25666354
 30
0.0
 11
-356.2451493617
 21
-46.25666354
 31
0.0
  0
LINE
  5
97
330
1F
100
AcDbEntity
  8
0
  6
Continuous
 62
     7
370
    25
100
AcDbLine
 10
-283.2451493617
 20
298.74333646
 30
0.0
 11
-283.2451493617
 21
-76.25666354
 31
0.0
  0
LINE
  5
98
330
1F
100
AcDbEntity
  8
0
  6
Continuous
 62
     7
370
    25
100
AcDbLine
 10
-318.2451493617
 20
298.74333646
 30
0.0
 11
-318.2451493617
 21
-76.25666354
 31
0.0
  0
LINE
  5
99
330
1F
100
AcDbEntity
  8
0
  6
Continuous
 62
     7
370
    25
100
AcDbLine
 10
-356.2451493617
 20
268.74333646
 30
0.0
 11
-356.2451493617
 21
-46.25666354
 31
0.0
  0
LINE
  5
9A
330
1F
100
AcDbEntity
  8
0
  6
Continuous
 62
     7
370
    25
100
AcDbLine
 10
-403.2451493617
 20
268.74333646
 30
0.0
 11
-403.2451493617
 21
-46.25666354
 31
0.0
  0
LINE
  5
9B
330
1F
100
AcDbEntity
  8
0
  6
Continuous
 62
     7
370
    25
100
AcDbLine
 10
-51.5055913462
 20
-296.9894426024
 30
0.0
 11
-51.5055913462
 21
-331.9894426024
 31
0.0
  0
LINE
  5
9C
330
1F
100
AcDbEntity
  8
0
  6
Continuous
 62
     7
370
    25
100
AcDbLine
 10
323.4944086538
 20
-331.9894426024
 30
0.0
 11
323.4944086538
 21
-296.9894426024
 31
0.0
  0
LINE
  5
9D
330
1F
100
AcDbEntity
  8
0
  6
Continuous
 62
     7
370
    25
100
AcDbLine
 10
-33.0055913462
 20
-331.9894426024
 30
0.0
 11
-21.5055913462
 21
-369.9894426024
 31
0.0
  0
LINE
  5
9E
330
1F
100
AcDbEntity
  8
0
  6
Continuous
 62
     7
370
    25
100
AcDbLine
 10
293.4944086538
 20
-369.9894426024
 30
0.0
 11
304.9944086538
 21
-331.9894426024
 31
0.0
  0
LINE
  5
9F
330
1F
100
AcDbEntity
  8
0
  6
Continuous
 62
     7
370
    25
100
AcDbLine
 10
-21.5055913462
 20
-369.9894426024
 30
0.0
 11
-21.5055913462
 21
-416.9894426024
 31
0.0
  0
LINE
  5
A0
330
1F
100
AcDbEntity
  8
0
  6
Continuous
 62
     7
370
    25
100
AcDbLine
 10
293.4944086538
 20
-416.9894426024
 30
0.0
 11
293.4944086538
 21
-369.9894426024
 31
0.0
  0
LINE
  5
A1
330
1F
100
AcDbEntity
  8
0
  6
Continuous
 62
     7
370
    25
100
AcDbLine
 10
-51.5055913462
 20
-296.9894426024
 30
0.0
 11
323.4944086538
 21
-296.9894426024
 31
0.0
  0
LINE
  5
A2
330
1F
100
AcDbEntity
  8
0
  6
Continuous
 62
     7
370
    25
100
AcDbLine
 10
-51.5055913462
 20
-331.9894426024
 30
0.0
 11
323.4944086538
 21
-331.9894426024
 31
0.0
  0
LINE
  5
A3
330
1F
100
AcDbEntity
  8
0
  6
Continuous
 62
     7
370
    25
100
AcDbLine
 10
-21.5055913462
 20
-369.9894426024
 30
0.0
 11
293.4944086538
 21
-369.9894426024
 31
0.0
  0
LINE
  5
A4
330
1F
100
AcDbEntity
  8
0
  6
Continuous
 62
     7
370
    25
100
AcDbLine
 10
-21.5055913462
 20
-416.9894426024
 30
0.0
 11
293.4944086538
 21
-416.9894426024
 31
0.0
  0
LINE
  5
A5
330
1F
100
AcDbEntity
  8
0
  6
Continuous
 62
     7
370
    25
100
AcDbLine
 10
565.8582550478
 20
-76.25666354
 30
0.0
 11
600.8582550478
 21
-76.25666354
 31
0.0
  0
LINE
  5
A6
330
1F
100
AcDbEntity
  8
0
  6
Continuous
 62
     7
370
    25
100
AcDbLine
 10
600.8582550478
 20
298.74333646
 30
0.0
 11
565.8582550478
 21
298.74333646
 31
0.0
  0
LINE
  5
A7
330
1F
100
AcDbEntity
  8
0
  6
Continuous
 62
     7
370
    25
100
AcDbLine
 10
600.8582550478
 20
-57.75666354
 30
0.0
 11
638.8582550478
 21
-46.25666354
 31
0.0
  0
LINE
  5
A8
330
1F
100
AcDbEntity
  8
0
  6
Continuous
 62
     7
370
    25
100
AcDbLine
 10
638.8582550478
 20
268.74333646
 30
0.0
 11
600.8582550478
 21
280.24333646
 31
0.0
  0
LINE
  5
A9
330
1F
100
AcDbEntity
  8
0
  6
Continuous
 62
     7
370
    25
100
AcDbLine
 10
638.8582550478
 20
-46.25666354
 30
0.0
 11
685.8582550478
 21
-46.25666354
 31
0.0
  0
LINE
  5
AA
330
1F
100
AcDbEntity
  8
0
  6
Continuous
 62
     7
370
    25
100
AcDbLine
 10
685.8582550478
 20
268.74333646
 30
0.0
 11
638.8582550478
 21
268.74333646
 31
0.0
  0
LINE
  5
AB
330
1F
100
AcDbEntity
  8
0
  6
Continuous
 62
     7
370
    25
100
AcDbLine
 10
565.8582550478
 20
111.24333646
 30
0.0
 11
565.8582550478
 21
298.74333646
 31
0.0
  0
LINE
  5
AC
330
1F
100
AcDbEntity
  8
0
  6
Continuous
 62
     7
370
    25
100
AcDbLine
 10
565.8582550478
 20
-76.25666354
 30
0.0
 11
565.8582550478
 21
111.24333646
 31
0.0
  0
LINE
  5
AD
330
1F
100
AcDbEntity
  8
0
  6
Continuous
 62
     7
370
    25
100
AcDbLine
 10
600.8582550478
 20
111.24333646
 30
0.0
 11
600.8582550478
 21
298.74333646
 31
0.0
  0
LINE
  5
AE
330
1F
100
AcDbEntity
  8
0
  6
Continuous
 62
     7
370
    25
100
AcDbLine
 10
600.8582550478
 20
-76.25666354
 30
0.0
 11
600.8582550478
 21
111.24333646
 31
0.0
  0
LINE
  5
AF
330
1F
100
AcDbEntity
  8
0
  6
Continuous
 62
     7
370
    25
100
AcDbLine
 10
638.8582550478
 20
111.24333646
 30
0.0
 11
638.8582550478
 21
268.74333646
 31
0.0
  0
LINE
  5
B0
330
1F
100
AcDbEntity
  8
0
  6
Continuous
 62
     7
370
    25
100
AcDbLine
 10
638.8582550478
 20
-46.25666354
 30
0.0
 11
638.8582550478
 21
111.24333646
 31
0.0
  0
LINE
  5
B1
330
1F
100
AcDbEntity
  8
0
  6
Continuous
 62
     7
370
    25
100
AcDbLine
 10
685.8582550478
 20
111.24333646
 30
0.0
 11
685.8582550478
 21
268.74333646
 31
0.0
  0
LINE
  5
B2
330
1F
100
AcDbEntity
  8
0
  6
Continuous
 62
     7
370
    25
100
AcDbLine
 10
685.8582550478
 20
-46.25666354
 30
0.0
 11
685.8582550478
 21
111.24333646
 31
0.0
  0
LINE
  5
B3
330
1F
100
AcDbEntity
  8
0
  6
Continuous
 62
     7
370
    25
100
AcDbLine
 10
641.0602568015
 20
-168.6327953648
 30
0.0
 11
607.8262380858
 21
-149.4472047369
 31
0.0
  0
LINE
  5
B4
330
1F
100
AcDbEntity
  8
0
  6
Continuous
 62
     7
370
    25
100
AcDbLine
 10
450.3390376956
 20
-422.2525963869
 30
0.0
 11
483.5730564114
 21
-441.4381870147
 31
0.0
  0
LINE
  5
B5
330
1F
100
AcDbEntity
  8
0
  6
Continuous
 62
     7
370
    25
100
AcDbLine
 10
653.6369271831
 20
-167.1355523031
 30
0.0
 11
632.5341503092
 21
-163.7107788548
 31
0.0
  0
LINE
  5
B6
330
1F
100
AcDbEntity
  8
0
  6
Continuous
 62
     7
370
    25
100
AcDbLine
 10
475.046949919
 20
-436.5161705047
 30
0.0
 11
488.5658333614
 21
-453.078056129
 31
0.0
  0
LINE
  5
B7
330
1F
100
AcDbEntity
  8
0
  6
Continuous
 62
     7
370
    25
100
AcDbLine
 10
707.6778328177
 20
-172.4502255749
 30
0.0
 11
682.9290954762
 21
-158.163083618
 31
0.0
  0
LINE
  5
B8
330
1F
100
AcDbEntity
  8
0
  6
Continuous
 62
     7
370
    25
100
AcDbLine
 10
495.4443331069
 20
-482.9314070107
 30
0.0
 11
520.1930704484
 21
-497.2185489676
 31
0.0
  0
LWPOLYLINE
  5
B9
330
1F
100
AcDbEntity
  8
0
  6
Continuous
 62
     7
370
    25
100
AcDbPolyline
 90
      134
 70
   128
 43
0.0
 10
417.7133198538
 20
-350.1420393679
 10
417.837574102
 20
-343.9970034358
 10
418.210059587
 20
-337.7222185804
 10
418.8299451478
 20
-331.3316863002
 10
419.6958475774
 20
-324.8396663716
 10
420.805834709
 20
-318.2606450295
 10
422.1574297272
 20
-311.6093026433
 10
423.747616695
 20
-304.9004809584
 10
425.5728472834
 20
-298.1491499795
 10
427.6290486894
 20
-291.3703745659
 10
429.9116327236
 20
-284.5792808161
 10
432.4155060484
 20
-277.7910223158
 10
435.1350815435
 20
-271.0207463241
 10
438.0642907724
 20
-264.2835599741
 10
441.1965975239
 20
-257.5944965628
 10
444.525012397
 20
-250.9684820063
 10
448.0421083965
 20
-244.4203015341
 10
451.740037506
 20
-237.9645666972
 10
455.6105481997
 20
-231.6156827645
 10
459.6450038547
 20
-225.3878165784
 10
463.834402023
 20
-219.2948649438
 10
468.1693945191
 20
-213.3504236182
 10
472.6403082795
 20
-207.5677569746
 10
477.2371669476
 20
-201.9597684034
 10
481.9497131341
 20
-196.5389715201
 10
486.7674313058
 20
-191.317462242
 10
491.6795712497
 20
-186.3068917982
 10
496.6751720606
 20
-181.5184407305
 10
501.7430865999
 20
-176.9627939457
 10
506.8720063684
 20
-172.6501168731
 10
512.0504867408
 20
-168.5900327816
 10
517.2669725023
 20
-164.7916013064
 10
522.5098236336
 20
-161.2632982335
 10
527.7673412835
 20
-158.0129965865
 10
533.0277938745
 20
-155.0479490594
 10
538.2794432799
 20
-152.3747718327
 10
543.5105710162
 20
-149.99942981
 10
548.7095043921
 20
-147.9272233082
 10
553.8646425543
 20
-146.1627762302
 10
558.9644823738
 20
-144.7100257475
 10
563.9976441137
 20
-143.5722135144
 10
568.9528968222
 20
-142.7518784349
 10
573.8191833928
 20
-142.2508509974
 10
578.5856452374
 20
-142.07024919
 10
583.2416465158
 20
-142.210476006
 10
587.7767978686
 20
-142.6712185444
 10
592.1809795996
 20
-143.4514487085
 10
596.4443642575
 20
-144.5494254997
 10
600.5574385638
 20
-145.9626989025
 10
604.5110246416
 20
-147.6881153514
 10
608.2963004943
 20
-149.7218247674
 10
611.9048196914
 20
-152.0592891497
 10
615.3285302155
 20
-154.6952927013
 10
618.5597924297
 20
-157.6239534674
 10
621.5913961245
 20
-160.8387364608
 10
624.4165766067
 20
-164.3324682435
 10
627.0290297939
 20
-168.0973529338
 10
629.4229262814
 20
-172.1249896018
 10
631.5929243502
 20
-176.4063910152
 10
633.5341818861
 20
-180.9320036933
 10
635.2423671843
 20
-185.6917292246
 10
636.7136686157
 20
-190.6749468003
 10
637.9448031313
 20
-195.8705369134
 10
638.9330235886
 20
-201.2669061708
 10
639.6761248814
 20
-206.8520131626
 10
640.1724488602
 20
-212.6133953311
 10
640.4208880321
 20
-218.53819678
 10
640.4208880321
 20
-224.6131969603
 10
640.1724488602
 20
-230.8248401714
 10
639.6761248814
 20
-237.1592658083
 10
638.9330235886
 20
-243.6023392905
 10
637.9448031313
 20
-250.1396836016
 10
636.7136686157
 20
-256.7567113702
 10
635.2423671843
 20
-263.4386574201
 10
633.5341818861
 20
-270.1706117167
 10
631.5929243502
 20
-276.9375526377
 10
629.4229262814
 20
-283.7243804918
 10
627.0290297939
 20
-290.5159512123
 10
624.4165766067
 20
-297.2971101493
 10
621.5913961245
 20
-304.0527258856
 10
618.5597924297
 20
-310.7677240009
 10
615.3285302155
 20
-317.4271207086
 10
611.9048196914
 20
-324.0160562908
 10
608.2963004943
 20
-330.5198282557
 10
604.5110246416
 20
-336.923924145
 10
600.5574385638
 20
-343.2140539165
 10
596.4443642575
 20
-349.3761818312
 10
592.1809795996
 20
-355.3965577722
 10
587.7767978686
 20
-361.2617479266
 10
583.2416465158
 20
-366.9586647618
 10
578.5856452374
 20
-372.4745962287
 10
573.8191833928
 20
-377.7972341273
 10
568.9528968222
 20
-382.9147015712
 10
563.9976441137
 20
-387.8155794895
 10
558.9644823738
 20
-392.4889321072
 10
553.8646425543
 20
-396.9243313473
 10
548.7095043921
 20
-401.1118800996
 10
543.5105710162
 20
-405.0422343055
 10
538.2794432799
 20
-408.7066238079
 10
533.0277938745
 20
-412.0968719209
 10
527.7673412835
 20
-415.2054136754
 10
522.5098236336
 20
-418.0253126992
 10
517.2669725023
 20
-420.5502766949
 10
512.0504867408
 20
-422.7746714806
 10
506.8720063684
 20
-424.6935335616
 10
501.7430865999
 20
-426.3025812063
 10
496.6751720606
 20
-427.5982240003
 10
491.6795712497
 20
-428.5775708579
 10
486.7674313058
 20
-429.2384364733
 10
481.9497131341
 20
-429.5793461969
 10
477.2371669476
 20
-429.5995393258
 10
472.6403082795
 20
-429.2989708012
 10
468.1693945191
 20
-428.678311309
 10
463.834402023
 20
-427.7389457833
 10
459.6450038547
 20
-426.4829703159
 10
455.6105481997
 20
-424.9131874791
 10
451.740037506
 20
-423.0331000722
 10
448.0421083965
 20
-420.8469033055
 10
444.525012397
 20
-418.3594754388
 10
441.1965975239
 20
-415.5763668962
 10
438.0642907724
 20
-412.5037878812
 10
435.1350815435
 20
-409.1485945191
 10
432.4155060484
 20
-405.5182735581
 10
429.9116327236
 20
-401.6209256639
 10
427.6290486894
 20
-397.4652473436
 10
425.5728472834
 20
-393.0605115405
 10
423.747616695
 20
-388.4165469425
 10
422.1574297272
 20
-383.5437160505
 10
420.805834709
 20
-378.4528920556
 10
419.6958475774
 20
-373.1554345769
 10
418.8299451478
 20
-367.6631643133
 10
418.210059587
 20
-361.9883366674
 10
417.837574102
 20
-356.1436143987
 10
417.7133198538
 20
-350.1420393679
  0
LWPOLYLINE
  5
BA
330
1F
100
AcDbEntity
  8
0
  6
Continuous
 62
     7
370
    25
100
AcDbPolyline
 90
      121
 70
   128
 43
0.0
 10
437.9365737957
 20
-338.4674033689
 10
438.0614863088
 20
-332.8868230524
 10
438.4358814716
 20
-327.1773178009
 10
439.058733093
 20
-321.3545369714
 10
439.9283339799
 20
-315.4344404013
 10
441.0423006168
 20
-309.433254664
 10
442.3975796985
 20
-303.3674285923
 10
443.9904564994
 20
-297.253588194
 10
445.8165650547
 20
-291.1084910804
 10
447.870900128
 20
-284.9489805358
 10
450.1478309295
 20
-278.7919393504
 10
452.6411165502
 20
-272.6542435461
 10
455.3439230675
 20
-266.5527161204
 10
458.2488422766
 20
-260.5040809359
 10
461.3479119959
 20
-254.5249168813
 10
464.6326378907
 20
-248.6316124295
 10
468.0940167556
 20
-242.8403207186
 10
471.7225611918
 20
-237.1669152764
 10
475.5083256112
 20
-231.6269465129
 10
479.4409334966
 20
-226.2355990976
 10
483.5096058432
 20
-221.0076503388
 10
487.7031907029
 20
-215.9574296807
 10
492.0101937511
 20
-211.0987794271
 10
496.4188097918
 20
-206.4450168007
 10
500.9169551149
 20
-202.0088974414
 10
505.4923006168
 20
-197.8025804438
 10
510.1323055933
 20
-193.8375950306
 10
514.8242521135
 20
-190.1248089512
 10
519.5552798779
 20
-186.6743986941
 10
524.3124214685
 20
-183.495821594
 10
529.0826378907
 20
-180.5977899098
 10
533.8528543129
 20
-177.988246945
 10
538.6099959034
 20
-175.6743452753
 10
543.3410236679
 20
-173.6624271445
 10
548.032970188
 20
-171.9580070802
 10
552.6729751646
 20
-170.5657567794
 10
557.2483206664
 20
-169.4894923035
 10
561.7464659895
 20
-168.7321636185
 10
566.1550820302
 20
-168.2958465097
 10
570.4620850784
 20
-168.1817368919
 10
574.6556699381
 20
-168.3901475318
 10
578.7243422848
 20
-168.9205071902
 10
582.6569501702
 20
-169.7713621881
 10
586.4427145896
 20
-170.9403803913
 10
590.0712590257
 20
-172.4243576019
 10
593.5326378907
 20
-174.2192263417
 10
596.8173637855
 20
-176.3200670002
 10
599.9164335048
 20
-178.7211213191
 10
602.8213527139
 20
-181.4158081755
 10
605.5241592312
 20
-184.3967416201
 10
608.0174448519
 20
-187.6557511213
 10
610.2943756534
 20
-191.1839039608
 10
612.3487107266
 20
-194.9715297168
 10
614.174819282
 20
-199.0082467705
 10
615.7676960828
 20
-203.2829907608
 10
617.1229751646
 20
-207.7840449118
 10
618.2369418015
 20
-212.4990721468
 10
619.1065426884
 20
-217.415148904
 10
619.7293943097
 20
-222.5188005586
 10
620.1037894725
 20
-227.7960383563
 10
620.2287019856
 20
-233.2323977549
 10
620.1037894725
 20
-238.8129780714
 10
619.7293943097
 20
-244.5224833229
 10
619.1065426884
 20
-250.3452641524
 10
618.2369418015
 20
-256.2653607225
 10
617.1229751646
 20
-262.2665464598
 10
615.7676960828
 20
-268.3323725315
 10
614.174819282
 20
-274.4462129298
 10
612.3487107266
 20
-280.5913100434
 10
610.2943756534
 20
-286.750820588
 10
608.0174448519
 20
-292.9078617734
 10
605.5241592312
 20
-299.0455575777
 10
602.8213527139
 20
-305.1470850034
 10
599.9164335048
 20
-311.1957201879
 10
596.8173637855
 20
-317.1748842425
 10
593.5326378907
 20
-323.0681886943
 10
590.0712590257
 20
-328.8594804052
 10
586.4427145896
 20
-334.5328858474
 10
582.6569501702
 20
-340.0728546109
 10
578.7243422848
 20
-345.4642020262
 10
574.6556699381
 20
-350.692150785
 10
570.4620850784
 20
-355.7423714431
 10
566.1550820302
 20
-360.6010216967
 10
561.7464659895
 20
-365.2547843231
 10
557.2483206664
 20
-369.6909036824
 10
552.6729751646
 20
-373.89722068
 10
548.032970188
 20
-377.8622060932
 10
543.3410236679
 20
-381.5749921726
 10
538.6099959034
 20
-385.0254024297
 10
533.8528543129
 20
-388.2039795298
 10
529.0826378907
 20
-391.102011214
 10
524.3124214685
 20
-393.7115541788
 10
519.5552798779
 20
-396.0254558485
 10
514.8242521135
 20
-398.0373739793
 10
510.1323055933
 20
-399.7417940436
 10
505.4923006168
 20
-401.1340443444
 10
500.9169551149
 20
-402.2103088203
 10
496.4188097918
 20
-402.9676375053
 10
492.0101937511
 20
-403.4039546141
 10
487.7031907029
 20
-403.5180642319
 10
483.5096058432
 20
-403.309653592
 10
479.4409334966
 20
-402.7792939336
 10
475.5083256112
 20
-401.9284389357
 10
471.7225611918
 20
-400.7594207325
 10
468.0940167556
 20
-399.2754435219
 10
464.6326378907
 20
-397.4805747821
 10
461.3479119959
 20
-395.3797341236
 10
458.2488422766
 20
-392.9786798047
 10
455.3439230675
 20
-390.2839929483
 10
452.6411165502
 20
-387.3030595037
 10
450.1478309295
 20
-384.0440500025
 10
447.870900128
 20
-380.515897163
 10
445.8165650547
 20
-376.728271407
 10
443.9904564994
 20
-372.6915543534
 10
442.3975796985
 20
-368.416810363
 10
441.0423006168
 20
-363.915756212
 10
439.9283339799
 20
-359.200728977
 10
439.058733093
 20
-354.2846522198
 10
438.4358814716
 20
-349.1810005652
 10
438.0614863088
 20
-343.9037627675
 10
437.9365737957
 20
-338.4674033689
  0
LWPOLYLINE
  5
BB
330
1F
100
AcDbEntity
  8
0
  6
Continuous
 62
     7
370
    25
100
AcDbPolyline
 90
       69
 70
   128
 43
0.0
 10
641.0602568015
 20
-168.6327953648
 10
641.53031921
 20
-168.9074153952
 10
645.1388384071
 20
-171.2448797775
 10
648.5625489312
 20
-173.8808833291
 10
651.7938111455
 20
-176.8095440952
 10
654.8254148403
 20
-180.0243270886
 10
657.6505953225
 20
-183.5180588713
 10
660.2630485096
 20
-187.2829435616
 10
662.6569449972
 20
-191.3105802296
 10
664.826943066
 20
-195.591981643
 10
666.7682006019
 20
-200.1175943211
 10
668.4763859001
 20
-204.8773198524
 10
669.9476873314
 20
-209.8605374281
 10
671.178821847
 20
-215.0561275412
 10
672.1670423044
 20
-220.4524967986
 10
672.9101435972
 20
-226.0376037904
 10
673.406467576
 20
-231.7989859589
 10
673.6549067479
 20
-237.7237874078
 10
673.6549067479
 20
-243.7987875882
 10
673.406467576
 20
-250.0104307993
 10
672.9101435972
 20
-256.3448564361
 10
672.1670423044
 20
-262.7879299183
 10
671.178821847
 20
-269.3252742294
 10
669.9476873314
 20
-275.9423019981
 10
668.4763859001
 20
-282.6242480479
 10
666.7682006019
 20
-289.3562023445
 10
664.826943066
 20
-296.1231432655
 10
662.6569449972
 20
-302.9099711196
 10
660.2630485096
 20
-309.7015418402
 10
657.6505953225
 20
-316.4827007772
 10
654.8254148403
 20
-323.2383165134
 10
651.7938111455
 20
-329.9533146287
 10
648.5625489312
 20
-336.6127113365
 10
645.1388384071
 20
-343.2016469186
 10
641.53031921
 20
-349.7054188835
 10
637.7450433573
 20
-356.1095147728
 10
633.7914572796
 20
-362.3996445443
 10
629.6783829732
 20
-368.5617724591
 10
625.4149983154
 20
-374.5821484
 10
621.0108165843
 20
-380.4473385544
 10
616.4756652316
 20
-386.1442553896
 10
611.8196639532
 20
-391.6601868565
 10
607.0532021086
 20
-396.9828247551
 10
602.186915538
 20
-402.100292199
 10
597.2316628295
 20
-407.0011701173
 10
592.1985010895
 20
-411.6745227351
 10
587.0986612701
 20
-416.1099219751
 10
581.9435231079
 20
-420.2974707274
 10
576.744589732
 20
-424.2278249333
 10
571.5134619956
 20
-427.8922144357
 10
566.2618125903
 20
-431.2824625488
 10
561.0013599993
 20
-434.3910043033
 10
555.7438423493
 20
-437.2109033271
 10
550.5009912181
 20
-439.7358673228
 10
545.2845054566
 20
-441.9602621084
 10
540.1060250842
 20
-443.8791241894
 10
534.9771053156
 20
-445.4881718342
 10
529.9091907764
 20
-446.7838146282
 10
524.9135899654
 20
-447.7631614858
 10
520.0014500216
 20
-448.4240271012
 10
515.1837318499
 20
-448.7649368248
 10
510.4711856634
 20
-448.7851299536
 10
505.8743269953
 20
-448.484561429
 10
501.4034132348
 20
-447.8639019369
 10
497.0684207388
 20
-446.9245364112
 10
492.8790225705
 20
-445.6685609437
 10
488.8445669154
 20
-444.0987781069
 10
484.9740562218
 20
-442.2186907001
 10
483.5730564114
 20
-441.4381870147
  0
LWPOLYLINE
  5
BC
330
1F
100
AcDbEntity
  8
0
  6
Continuous
 62
     7
370
    25
100
AcDbPolyline
 90
       80
 70
   128
 43
0.0
 10
653.6369271831
 20
-167.1355523031
 10
658.1006160037
 20
-168.0260117705
 10
662.47273244
 20
-169.2408928823
 10
666.6929524125
 20
-170.769379515
 10
670.7525288708
 20
-172.6083036466
 10
674.6430477227
 20
-174.753853826
 10
678.3564452738
 20
-177.2015830729
 10
681.8850249406
 20
-179.9464180947
 10
685.221473203
 20
-182.9826698015
 10
688.3588747625
 20
-186.304045098
 10
691.2907268751
 20
-189.9036599269
 10
694.0109528296
 20
-193.7740535365
 10
696.5139145425
 20
-197.9072039453
 10
698.7944242433
 20
-202.2945445677
 10
700.8477552274
 20
-206.9269819703
 10
702.6696516527
 20
-211.7949147193
 10
704.2563373608
 20
-216.8882532807
 10
705.6045237032
 20
-222.1964409325
 10
706.7114163579
 20
-227.7084756451
 10
707.5747211207
 20
-233.412932885
 10
708.1926486607
 20
-239.2979892933
 10
708.5639182288
 20
-245.3514471921
 10
708.6877603121
 20
-251.5607598653
 10
708.5639182288
 20
-257.9130575644
 10
708.1926486607
 20
-264.3951741822
 10
707.5747211207
 20
-270.9936745422
 10
706.7114163579
 20
-277.6948822448
 10
705.6045237032
 20
-284.4849080137
 10
704.2563373608
 20
-291.3496784836
 10
702.6696516527
 20
-298.2749653694
 10
700.8477552274
 20
-305.2464149565
 10
698.7944242433
 20
-312.2495778511
 10
696.5139145425
 20
-319.2699389286
 10
694.0109528296
 20
-326.2929474186
 10
691.2907268751
 20
-333.3040470637
 10
688.3588747625
 20
-340.288706289
 10
685.221473203
 20
-347.2324483218
 10
681.8850249406
 20
-354.1208811964
 10
678.3564452738
 20
-360.9397275838
 10
674.6430477227
 20
-367.6748543834
 10
670.7525288708
 20
-374.3123020165
 10
666.6929524125
 20
-380.8383133593
 10
662.47273244
 20
-387.2393622568
 10
658.1006160037
 20
-393.5021815576
 10
653.5856649825
 20
-399.6137906123
 10
648.9372373018
 20
-405.5615221779
 10
644.1649675379
 20
-411.3330486725
 10
639.2787469486
 20
-416.916407726
 10
634.2887029722
 20
-422.3000269742
 10
629.2051782369
 20
-427.4727480442
 10
624.038709124
 20
-432.4238496815
 10
618.8000039297
 20
-437.1430699719
 10
613.4999206705
 20
-441.6206276108
 10
608.1494445783
 20
-445.8472421762
 10
602.7596653318
 20
-449.814153364
 10
597.3417540716
 20
-453.5131391449
 10
591.9069402461
 20
-456.9365328061
 10
586.466488337
 20
-460.0772388415
 10
581.0316745115
 20
-462.9287476581
 10
575.6137632513
 20
-465.4851490685
 10
570.2239840048
 20
-467.7411445405
 10
564.8735079126
 20
-469.6920581788
 10
559.5734246533
 20
-471.333846417
 10
554.334719459
 20
-472.6631063984
 10
549.1682503461
 20
-473.6770830286
 10
544.0847256109
 20
-474.3736746862
 10
539.0946816345
 20
-474.7514375786
 10
534.2084610452
 20
-474.8095887346
 10
529.4361912813
 20
-474.5480076269
 10
524.7877636006
 20
-473.9672364225
 10
520.2728125793
 20
-473.0684788582
 10
515.900696143
 20
-471.8535977464
 10
511.6804761706
 20
-470.3251111138
 10
507.6208997123
 20
-468.4861869822
 10
503.7303808604
 20
-466.3406368027
 10
500.0169833093
 20
-463.8929075558
 10
496.4884036424
 20
-461.1480725341
 10
493.15195538
 20
-458.1118208273
 10
490.0145538206
 20
-454.7904455307
 10
488.5658333614
 20
-453.078056129
  0
LWPOLYLINE
  5
BD
330
1F
100
AcDbEntity
  8
0
  6
Continuous
 62
     7
370
    25
100
AcDbPolyline
 90
      101
 70
   128
 43
0.0
 10
617.0587060835
 20
-154.7769950643
 10
621.8803387185
 20
-153.3000322538
 10
627.4156036774
 20
-151.8792995704
 10
632.879097891
 20
-150.7752233314
 10
638.2605642197
 20
-149.9898763245
 10
643.5498995227
 20
-149.5247329567
 10
648.7371736258
 20
-149.380666486
 10
653.8126479638
 20
-149.5579473822
 10
658.766793864
 20
-150.056242819
 10
663.590310435
 20
-150.8746172988
 10
668.2741420286
 20
-152.0115344088
 10
672.8094952402
 20
-153.4648597062
 10
677.1878554183
 20
-155.2318647244
 10
681.4010026489
 20
-157.3092320963
 10
685.4410271884
 20
-159.6930617815
 10
689.3003443128
 20
-162.378878389
 10
692.9717085575
 20
-165.3616395787
 10
696.4482273198
 20
-168.6357455282
 10
699.723373799
 20
-172.1950494455
 10
702.7909992496
 20
-176.0328691096
 10
705.6453445255
 20
-180.1419994151
 10
708.2810508917
 20
-184.514725899
 10
710.6931700848
 20
-189.1428392244
 10
712.8771736032
 20
-194.017650592
 10
714.8289612083
 20
-199.1300080529
 10
716.544868623
 20
-204.4703136902
 10
718.0216744103
 20
-210.0285416379
 10
719.2566060217
 20
-215.7942569039
 10
720.2473450021
 20
-221.7566349602
 10
720.9920313426
 20
-227.904482065
 10
721.4892669723
 20
-234.2262562778
 10
721.7381183835
 20
-240.7100891279
 10
721.7381183835
 20
-247.3438078968
 10
721.4892669723
 20
-254.1149584706
 10
720.9920313426
 20
-261.0108287216
 10
720.2473450021
 20
-268.0184723738
 10
719.2566060217
 20
-275.1247333087
 10
718.0216744103
 20
-282.3162702637
 10
716.544868623
 20
-289.5795818797
 10
714.8289612083
 20
-296.901032048
 10
712.8771736032
 20
-304.266875511
 10
710.6931700848
 20
-311.6632836673
 10
708.2810508917
 20
-319.0763705332
 10
705.6453445255
 20
-326.4922188129
 10
702.7909992496
 20
-333.896906026
 10
699.723373799
 20
-341.2765306459
 10
696.4482273198
 20
-348.6172381987
 10
692.9717085575
 20
-355.9052472727
 10
689.3003443128
 20
-363.1268753926
 10
685.4410271884
 20
-370.2685647061
 10
681.4010026489
 20
-377.3169074377
 10
677.1878554183
 20
-384.2586710604
 10
672.8094952402
 20
-391.0808231383
 10
668.2741420286
 20
-397.7705557938
 10
663.590310435
 20
-404.3153097527
 10
658.766793864
 20
-410.7027979235
 10
653.8126479638
 20
-416.9210284644
 10
648.7371736258
 20
-422.9583272973
 10
643.5498995227
 20
-428.8033600245
 10
638.2605642197
 20
-434.4451532078
 10
632.879097891
 20
-439.87311497
 10
627.4156036774
 20
-445.07705488
 10
621.8803387185
 20
-450.0472030844
 10
616.2836948958
 20
-454.7742286493
 10
610.6361793233
 20
-459.2492570781
 10
604.9483946215
 20
-463.4638869726
 10
599.2310190117
 20
-467.4102058053
 10
593.4947862693
 20
-471.0808047752
 10
587.750465572
 20
-474.4687927161
 10
582.0088412815
 20
-477.5678090347
 10
576.2806926976
 20
-480.3720356516
 10
570.5767738207
 20
-482.8762079245
 10
564.9077931626
 20
-485.0756245315
 10
559.284393642
 20
-486.9661562978
 10
553.717132604
 20
-488.5442539474
 10
548.2164619995
 20
-489.806954767
 10
542.7927087627
 20
-490.7518881678
 10
537.4560554237
 20
-491.3772801358
 10
532.2165209915
 20
-491.6819565632
 10
527.0839421446
 20
-491.6653454518
 10
522.0679547633
 20
-491.3274779871
 10
517.17797584
 20
-490.66898848
 10
512.423185799
 20
-489.6911131759
 10
507.812511262
 20
-488.3956879333
 10
503.3546082885
 20
-486.7851447778
 10
499.0578461256
 20
-484.862507336
 10
494.9302914953
 20
-482.6313851586
 10
490.9796934501
 20
-480.0959669446
 10
487.2134688251
 20
-477.2610126766
 10
483.6386883135
 20
-474.1318446851
 10
480.2620631922
 20
-470.714337656
 10
477.089932722
 20
-467.0149076017
 10
474.1282522465
 20
-463.0404998156
 10
471.3825820112
 20
-458.7985758329
 10
468.8580767251
 20
-454.2970994228
 10
466.5594758832
 20
-449.5445216369
 10
464.4910948683
 20
-444.5497649433
 10
462.6568168497
 20
-439.3222064759
 10
461.0600854927
 20
-433.8716604295
 10
459.7038984936
 20
-428.2083596347
 10
459.5715056933
 20
-427.5823867142
  0
LWPOLYLINE
  5
BE
330
1F
100
AcDbEntity
  8
0
  6
Continuous
 62
     7
370
    25
100
AcDbPolyline
 90
       74
 70
   128
 43
0.0
 10
707.6778328177
 20
-172.4502255749
 10
710.1897645299
 20
-173.9802037384
 10
714.0490816543
 20
-176.6660203459
 10
717.7204458991
 20
-179.6487815356
 10
721.1969646614
 20
-182.9228874851
 10
724.4721111405
 20
-186.4821914024
 10
727.5397365911
 20
-190.3200110665
 10
730.3940818671
 20
-194.429141372
 10
733.0297882332
 20
-198.8018678559
 10
735.4419074264
 20
-203.4299811813
 10
737.6259109447
 20
-208.3047925489
 10
739.5776985499
 20
-213.4171500098
 10
741.2936059645
 20
-218.7574556471
 10
742.7704117518
 20
-224.3156835948
 10
744.0053433632
 20
-230.0813988608
 10
744.9960823436
 20
-236.0437769171
 10
745.7407686841
 20
-242.1916240219
 10
746.2380043139
 20
-248.5133982347
 10
746.486855725
 20
-254.9972310848
 10
746.486855725
 20
-261.6309498537
 10
746.2380043139
 20
-268.4021004275
 10
745.7407686841
 20
-275.2979706785
 10
744.9960823436
 20
-282.3056143307
 10
744.0053433632
 20
-289.4118752656
 10
742.7704117518
 20
-296.6034122206
 10
741.2936059645
 20
-303.8667238366
 10
739.5776985499
 20
-311.1881740049
 10
737.6259109447
 20
-318.5540174679
 10
735.4419074264
 20
-325.9504256242
 10
733.0297882332
 20
-333.3635124901
 10
730.3940818671
 20
-340.7793607698
 10
727.5397365911
 20
-348.1840479829
 10
724.4721111405
 20
-355.5636726028
 10
721.1969646614
 20
-362.9043801556
 10
717.7204458991
 20
-370.1923892296
 10
714.0490816543
 20
-377.4140173495
 10
710.1897645299
 20
-384.555706663
 10
706.1497399904
 20
-391.6040493946
 10
701.9365927598
 20
-398.5458130173
 10
697.5582325818
 20
-405.3679650952
 10
693.0228793701
 20
-412.0576977507
 10
688.3390477765
 20
-418.6024517096
 10
683.5155312055
 20
-424.9899398804
 10
678.5613853053
 20
-431.2081704212
 10
673.4859109674
 20
-437.2454692542
 10
668.2986368643
 20
-443.0905019814
 10
663.0093015612
 20
-448.7322951647
 10
657.6278352325
 20
-454.1602569269
 10
652.164341019
 20
-459.3641968369
 10
646.62907606
 20
-464.3343450413
 10
641.0324322373
 20
-469.0613706062
 10
635.3849166649
 20
-473.536399035
 10
629.697131963
 20
-477.7510289294
 10
623.9797563532
 20
-481.6973477622
 10
618.2435236109
 20
-485.3679467321
 10
612.4992029135
 20
-488.755934673
 10
606.757578623
 20
-491.8549509916
 10
601.0294300391
 20
-494.6591776085
 10
595.3255111623
 20
-497.1633498814
 10
589.6565305041
 20
-499.3627664884
 10
584.0331309835
 20
-501.2532982547
 10
578.4658699455
 20
-502.8313959043
 10
572.965199341
 20
-504.0940967239
 10
567.5414461042
 20
-505.0390301247
 10
562.2047927652
 20
-505.6644220927
 10
556.9652583331
 20
-505.9690985201
 10
551.8326794861
 20
-505.9524874087
 10
546.8166921048
 20
-505.614619944
 10
541.9267131815
 20
-504.9561304369
 10
537.1719231405
 20
-503.9782551328
 10
532.5612486035
 20
-502.6828298902
 10
528.10334563
 20
-501.0722867347
 10
523.8065834671
 20
-499.1496492929
 10
520.1930704484
 20
-497.2185489676
  0
LWPOLYLINE
  5
BF
330
1F
100
AcDbEntity
  8
0
  6
Continuous
 62
     7
370
    25
100
AcDbPolyline
 90
       36
 70
   128
 43
0.0
 10
506.1016675021
 20
-377.8182743587
 10
506.2265800152
 20
-372.2376940423
 10
506.600975178
 20
-366.5281887908
 10
507.2238267993
 20
-360.7054079612
 10
508.0934276863
 20
-354.7853113912
 10
509.2073943232
 20
-348.7841256539
 10
510.5626734049
 20
-342.7182995822
 10
512.1555502058
 20
-336.6044591838
 10
513.9816587611
 20
-330.4593620703
 10
516.0359938344
 20
-324.2998515257
 10
518.3129246359
 20
-318.1428103403
 10
520.8062102566
 20
-312.0051145359
 10
523.5090167739
 20
-305.9035871102
 10
526.413935983
 20
-299.8549519258
 10
529.5130057023
 20
-293.8757878711
 10
532.7977315971
 20
-287.9824834194
 10
536.259110462
 20
-282.1911917084
 10
539.8876548982
 20
-276.5177862662
 10
543.6734193175
 20
-270.9778175028
 10
547.606027203
 20
-265.5864700874
 10
551.6746995496
 20
-260.3585213286
 10
555.8682844093
 20
-255.3083006705
 10
560.1752874575
 20
-250.449650417
 10
564.5839034982
 20
-245.7958877906
 10
569.0820488213
 20
-241.3597684312
 10
573.6573943232
 20
-237.1534514337
 10
578.2973992997
 20
-233.1884660205
 10
582.9893458198
 20
-229.475679941
 10
587.7203735843
 20
-226.0252696839
 10
592.4775151749
 20
-222.8466925839
 10
597.2477315971
 20
-219.9486608997
 10
602.0179480192
 20
-217.3391179348
 10
606.7750896098
 20
-215.0252162651
 10
611.5061173743
 20
-213.0132981343
 10
616.1980638944
 20
-211.3088780701
 10
617.86331013
 20
-210.775137428
  0
ARC
  5
C0
330
1F
100
AcDbEntity
  8
0
  6
Continuous
 62
     7
370
    25
100
AcDbCircle
 10
607.0776948155
 20
-378.5358123466
 30
0.0
 40
100.9785767019639
100
AcDbArc
 50
179.5928617171
 51
192.4325674092
  0
LWPOLYLINE
  5
C1
330
1F
100
AcDbEntity
  8
0
  6
Continuous
 62
     7
370
    25
100
AcDbPolyline
 90
       32
 70
   128
 43
0.0
 10
506.4526770609
 20
-386.8438578069
 10
506.597424592
 20
-384.8726180925
 10
507.2160520042
 20
-378.5864430911
 10
508.0801374554
 20
-372.1996369593
 10
509.1876935214
 20
-365.7268895558
 10
510.5361727878
 20
-359.1830884071
 10
512.1224737089
 20
-352.5832844655
 10
513.942947742
 20
-345.9426574916
 10
515.9934077383
 20
-339.2764811402
 10
518.2691375741
 20
-332.6000878306
 10
520.764902998
 20
-325.9288334813
 10
523.4749636694
 20
-319.278062191
 10
526.3930863619
 20
-312.663070947
 10
529.5125593
 20
-306.099074441
 10
532.8262075957
 20
-299.6011700754
 10
536.326409752
 20
-293.1843032384
 10
540.0051151915
 20
-286.8632329293
 10
543.853862774
 20
-280.6524978125
 10
547.8638002567
 20
-274.5663827777
 10
552.0257046549
 20
-268.6188860846
 10
556.330003455
 20
-262.8236871661
 10
560.7667966319
 20
-257.1941151655
 10
565.3258794192
 20
-251.7431182787
 10
569.9967657802
 20
-246.4832339733
 10
574.7687125267
 20
-241.4265601518
 10
579.6307440283
 20
-236.5847273259
 10
584.5716774567
 20
-231.9688718663
 10
589.5801485067
 20
-227.5896103885
 10
594.6446375344
 20
-223.4570153343
 10
599.7534960526
 20
-219.5805918047
 10
604.8949735232
 20
-215.969255698
 10
605.2244121456
 20
-215.7476556587
  0
ENDSEC
  0
SECTION
  2
OBJECTS
  0
DICTIONARY
  5
C
330
0
100
AcDbDictionary
281
     1
  3
ACAD_GROUP
350
D
  3
ACAD_LAYOUT
350
1A
  3
ACAD_MLINESTYLE
350
17
  3
ACAD_PLOTSETTINGS
350
19
  3
ACAD_PLOTSTYLENAME
350
E
  3
ACAD_SCALELIST
350
47
  0
DICTIONARY
  5
D
102
{ACAD_REACTORS
330
C
102
}
330
C
100
AcDbDictionary
281
     1
  0
DICTIONARY
  5
1A
102
{ACAD_REACTORS
330
C
102
}
330
C
100
AcDbDictionary
281
     1
  3
Layout1
350
1E
  3
Layout2
350
26
  3
Model
350
22
  0
DICTIONARY
  5
17
102
{ACAD_REACTORS
330
C
102
}
330
C
100
AcDbDictionary
281
     1
  3
Standard
350
18
  0
DICTIONARY
  5
19
102
{ACAD_REACTORS
330
C
102
}
330
C
100
AcDbDictionary
281
     1
  0
ACDBDICTIONARYWDFLT
  5
E
102
{ACAD_REACTORS
330
C
102
}
330
C
100
AcDbDictionary
281
     1
  3
Normal
350
F
100
AcDbDictionaryWithDefault
340
F
  0
DICTIONARY
  5
47
102
{ACAD_REACTORS
330
C
102
}
330
C
100
AcDbDictionary
281
     1
  3
A0
350
48
  3
A1
350
49
  3
A2
350
4A
  3
A3
350
4B
  3
A4
350
4C
  3
A5
350
4D
  3
A6
350
4E
  3
A7
350
4F
  3
A8
350
50
  3
A9
350
51
  3
B0
350
52
  3
B1
350
53
  3
B2
350
54
  3
B3
350
55
  3
B4
350
56
  3
B5
350
57
  3
B6
350
58
  3
B7
350
59
  3
B8
350
5A
  3
B9
350
5B
  3
C0
350
5C
  3
C1
350
5D
  3
C2
350
5E
  3
C3
350
5F
  3
C4
350
60
  3
C5
350
61
  3
C6
350
62
  3
C7
350
63
  3
C8
350
64
  3
C9
350
65
  3
D0
350
66
  3
D1
350
67
  3
D2
350
68
  0
LAYOUT
  5
1E
102
{ACAD_REACTORS
330
1A
102
}
330
1A
100
AcDbPlotSettings
  1

  2
none_device
  4

  6

 40
0.0
 41
0.0
 42
0.0
 43
0.0
 44
0.0
 45
0.0
 46
0.0
 47
0.0
 48
0.0
 49
0.0
140
0.0
141
0.0
142
1.0
143
1.0
 70
   688
 72
     1
 73
     0
 74
     5
  7

 75
    16
147
1.0
148
0.0
149
0.0
100
AcDbLayout
  1
Layout1
 70
     1
 71
     1
 10
0.0
 20
0.0
 11
420.0
 21
297.0
 12
0.0
 22
0.0
 32
0.0
 14
1.0000000000E+20
 24
1.0000000000E+20
 34
1.0000000000E+20
 15
-1.0000000000E+20
 25
-1.0000000000E+20
 35
-1.0000000000E+20
146
0.0
 13
0.0
 23
0.0
 33
0.0
 16
1.0
 26
0.0
 36
0.0
 17
0.0
 27
1.0
 37
0.0
 76
     0
330
1B
  0
LAYOUT
  5
26
102
{ACAD_REACTORS
330
1A
102
}
330
1A
100
AcDbPlotSettings
  1

  2
none_device
  4

  6

 40
0.0
 41
0.0
 42
0.0
 43
0.0
 44
0.0
 45
0.0
 46
0.0
 47
0.0
 48
0.0
 49
0.0
140
0.0
141
0.0
142
1.0
143
1.0
 70
   688
 72
     1
 73
     0
 74
     5
  7

 75
    16
147
1.0
148
0.0
149
0.0
100
AcDbLayout
  1
Layout2
 70
     1
 71
     2
 10
0.0
 20
0.0
 11
0.0
 21
0.0
 12
0.0
 22
0.0
 32
0.0
 14
0.0
 24
0.0
 34
0.0
 15
0.0
 25
0.0
 35
0.0
146
0.0
 13
0.0
 23
0.0
 33
0.0
 16
1.0
 26
0.0
 36
0.0
 17
0.0
 27
1.0
 37
0.0
 76
     0
330
23
  0
LAYOUT
  5
22
102
{ACAD_REACTORS
330
1A
102
}
330
1A
100
AcDbPlotSettings
  1

  2
none_device
  4
Letter_(8.50_x_11.00_Inches)
  6

 40
6.35
 41
6.35
 42
6.35000508
 43
6.35000508
 44
215.9
 45
279.4
 46
0.0
 47
0.0
 48
0.0
 49
0.0
140
0.0
141
0.0
142
1.0
143
1.0
 70
  1712
 72
     1
 73
     0
 74
     0
  7

 75
     0
147
1.0
148
0.0
149
0.0
100
AcDbLayout
  1
Model
 70
     1
 71
     0
 10
0.0
 20
0.0
 11
279.4
 21
215.9
 12
0.0
 22
0.0
 32
0.0
 14
0.0
 24
0.0
 34
0.0
 15
279.4
 25
215.9
 35
0.0
146
0.0
 13
0.0
 23
0.0
 33
0.0
 16
1.0
 26
0.0
 36
0.0
 17
0.0
 27
1.0
 37
0.0
 76
     0
330
1F
331
29
  0
MLINESTYLE
  5
18
102
{ACAD_REACTORS
330
17
102
}
330
17
100
AcDbMlineStyle
  2
Standard
 70
     0
  3

 62
   256
 51
90.0
 52
90.0
 71
     2
 49
0.5
 62
   256
  6
BYLAYER
 49
-0.5
 62
   256
  6
BYLAYER
  0
ACDBPLACEHOLDER
  5
F
102
{ACAD_REACTORS
330
E
102
}
330
E
  0
SCALE
  5
48
102
{ACAD_REACTORS
330
47
102
}
330
47
100
AcDbScale
 70
     0
300
1:1
140
1.0
141
1.0
290
     1
  0
SCALE
  5
49
102
{ACAD_REACTORS
330
47
102
}
330
47
100
AcDbScale
 70
     0
300
1:2
140
1.0
141
2.0
290
     0
  0
SCALE
  5
4A
102
{ACAD_REACTORS
330
47
102
}
330
47
100
AcDbScale
 70
     0
300
1:4
140
1.0
141
4.0
290
     0
  0
SCALE
  5
4B
102
{ACAD_REACTORS
330
47
102
}
330
47
100
AcDbScale
 70
     0
300
1:5
140
1.0
141
5.0
290
     0
  0
SCALE
  5
4C
102
{ACAD_REACTORS
330
47
102
}
330
47
100
AcDbScale
 70
     0
300
1:8
140
1.0
141
8.0
290
     0
  0
SCALE
  5
4D
102
{ACAD_REACTORS
330
47
102
}
330
47
100
AcDbScale
 70
     0
300
1:10
140
1.0
141
10.0
290
     0
  0
SCALE
  5
4E
102
{ACAD_REACTORS
330
47
102
}
330
47
100
AcDbScale
 70
     0
300
1:16
140
1.0
141
16.0
290
     0
  0
SCALE
  5
4F
102
{ACAD_REACTORS
330
47
102
}
330
47
100
AcDbScale
 70
     0
300
1:20
140
1.0
141
20.0
290
     0
  0
SCALE
  5
50
102
{ACAD_REACTORS
330
47
102
}
330
47
100
AcDbScale
 70
     0
300
1:30
140
1.0
141
30.0
290
     0
  0
SCALE
  5
51
102
{ACAD_REACTORS
330
47
102
}
330
47
100
AcDbScale
 70
     0
300
1:40
140
1.0
141
40.0
290
     0
  0
SCALE
  5
52
102
{ACAD_REACTORS
330
47
102
}
330
47
100
AcDbScale
 70
     0
300
1:50
140
1.0
141
50.0
290
     0
  0
SCALE
  5
53
102
{ACAD_REACTORS
330
47
102
}
330
47
100
AcDbScale
 70
     0
300
1:100
140
1.0
141
100.0
290
     0
  0
SCALE
  5
54
102
{ACAD_REACTORS
330
47
102
}
330
47
100
AcDbScale
 70
     0
300
2:1
140
2.0
141
1.0
290
     0
  0
SCALE
  5
55
102
{ACAD_REACTORS
330
47
102
}
330
47
100
AcDbScale
 70
     0
300
4:1
140
4.0
141
1.0
290
     0
  0
SCALE
  5
56
102
{ACAD_REACTORS
330
47
102
}
330
47
100
AcDbScale
 70
     0
300
8:1
140
8.0
141
1.0
290
     0
  0
SCALE
  5
57
102
{ACAD_REACTORS
330
47
102
}
330
47
100
AcDbScale
 70
     0
300
10:1
140
10.0
141
1.0
290
     0
  0
SCALE
  5
58
102
{ACAD_REACTORS
330
47
102
}
330
47
100
AcDbScale
 70
     0
300
100:1
140
100.0
141
1.0
290
     0
  0
SCALE
  5
59
102
{ACAD_REACTORS
330
47
102
}
330
47
100
AcDbScale
 70
     0
300
1/128" = 1'-0"
140
0.0078125
141
12.0
290
     0
  0
SCALE
  5
5A
102
{ACAD_REACTORS
330
47
102
}
330
47
100
AcDbScale
 70
     0
300
1/64" = 1'-0"
140
0.015625
141
12.0
290
     0
  0
SCALE
  5
5B
102
{ACAD_REACTORS
330
47
102
}
330
47
100
AcDbScale
 70
     0
300
1/32" = 1'-0"
140
0.03125
141
12.0
290
     0
  0
SCALE
  5
5C
102
{ACAD_REACTORS
330
47
102
}
330
47
100
AcDbScale
 70
     0
300
1/16" = 1'-0"
140
0.0625
141
12.0
290
     0
  0
SCALE
  5
5D
102
{ACAD_REACTORS
330
47
102
}
330
47
100
AcDbScale
 70
     0
300
3/32" = 1'-0"
140
0.09375
141
12.0
290
     0
  0
SCALE
  5
5E
102
{ACAD_REACTORS
330
47
102
}
330
47
100
AcDbScale
 70
     0
300
1/8" = 1'-0"
140
0.125
141
12.0
290
     0
  0
SCALE
  5
5F
102
{ACAD_REACTORS
330
47
102
}
330
47
100
AcDbScale
 70
     0
300
3/16" = 1'-0"
140
0.1875
141
12.0
290
     0
  0
SCALE
  5
60
102
{ACAD_REACTORS
330
47
102
}
330
47
100
AcDbScale
 70
     0
300
1/4" = 1'-0"
140
0.25
141
12.0
290
     0
  0
SCALE
  5
61
102
{ACAD_REACTORS
330
47
102
}
330
47
100
AcDbScale
 70
     0
300
3/8" = 1'-0"
140
0.375
141
12.0
290
     0
  0
SCALE
  5
62
102
{ACAD_REACTORS
330
47
102
}
330
47
100
AcDbScale
 70
     0
300
1/2" = 1'-0"
140
0.5
141
12.0
290
     0
  0
SCALE
  5
63
102
{ACAD_REACTORS
330
47
102
}
330
47
100
AcDbScale
 70
     0
300
3/4" = 1'-0"
140
0.75
141
12.0
290
     0
  0
SCALE
  5
64
102
{ACAD_REACTORS
330
47
102
}
330
47
100
AcDbScale
 70
     0
300
1" = 1'-0"
140
1.0
141
12.0
290
     0
  0
SCALE
  5
65
102
{ACAD_REACTORS
330
47
102
}
330
47
100
AcDbScale
 70
     0
300
1-1/2" = 1'-0"
140
1.5
141
12.0
290
     0
  0
SCALE
  5
66
102
{ACAD_REACTORS
330
47
102
}
330
47
100
AcDbScale
 70
     0
300
3" = 1'-0"
140
3.0
141
12.0
290
     0
  0
SCALE
  5
67
102
{ACAD_REACTORS
330
47
102
}
330
47
100
AcDbScale
 70
     0
300
6" = 1'-0"
140
6.0
141
12.0
290
     0
  0
SCALE
  5
68
102
{ACAD_REACTORS
330
47
102
}
330
47
100
AcDbScale
 70
     0
300
1'-0" = 1'-0"
140
12.0
141
12.0
290
     0
  0
ENDSEC
  0
EOF
